N.I.B.- BLACK SABBATH – Guitar Lesson


833



**TABS FOR THIS LESSON: https://guitarlessonvideoswithtabs.yolasite.com/BLACK-SABBATH---NIB.php
How to play N.I.B. by Black Sabbath from their first album, 1971. Heavy guitar riffs! Guitar lesson with step by step method with easy to follow tabs in the video.
TABS for this lesson available on my guitar lesson website: http://www.bobsguitarlessons.yolasite.com
Facebook: https://www.facebook.com/BobbyCrispyGuitarLessons
E------------------------------------------------------------
B------------------------------------------------------------
G------------------------------------------------------------
D---11--9--7-----9--9--7-----2--0--2-----2--2--0----
A----0---0--0-----0--0--0-----0--0--0-----0--0--0----
E------------------------------------------------------------

E----------------------------------------------------------------
B----------------------------------------------------------------
G---------------------------------------------------------------
D---11--9--7-----9--9/11-----11--9--7-----9--9/11----
A----0---0--0-----0--0-----------0--0--0-----0--0--------
E---------------------------------------------------------------

E---------------------------------------------------------------
B---------------------------------------------------------------
G---------------------------------------------------------------
D---7/9--x--9--9--9--9----9/12--x--12--12--12--12--
A---5/7--x--7--7--7--7----7/10--x--10--10--10--10--
E---------------------------------------------------------------

E-------------------------------------------------------------------
B-------------------------------------------------------------------
G-------------------------------------------------------------------
D---7/9--x--9--9--9--9-----------------------------------------
A---5/7--x--7--7--7--7----5--5--5--5--54------------------
E------------------------------3--3--3--3--32------------------

E---------------------------
B---------------------------
G--------------------------
D--------------------------
A--------------------------
E---3--3--3--2--3--4---

E------------------------------------------------------------------------------
B------------------------------------------------------------------------------
G------------------------------------------------------------------------------
D-----------7--7----------------------------------7--7----------------------
A-------------------5h6p5------5-----------------------5h6p5------5---
E---5--5---------------------8------8----5--5---------------------8-------

E-----------------------------
B-----------------------------
G-----------------------------
D---2--0--2-----2--2--0---
A---0--0--0-----0--0--0---
E-----------------------------

E--------------------------------------------------
B--------------------------------------------------
G------------4h5---5p4------------------------
D---5---5---5------5-------3---3----8---5----
A---5---5---5------5-------3---3----8---5----
E--------------------------------------------------

E---------------------------------------------------
B---------------------------------------------------
G------------6h7---6p5--------------------------
D---7---7---7------7-------5---5----10---7----
A---7---7---7------7-------5---5----10---7----
E---------------------------------------------------

Source